Great Big White World
tabbed by Victor


Alright this is the first song I've tried to learn by ear.  
I think i'm pretty close but if you have any correction send
them to victor@cwnet.com

okay here you go.

Riff 1 

g|-----------------------------------------
d|-----------------------------------------
a|-----------------------------------------
e|---5-0-5-0-5-0------------------------

I hear a faint bass in the back ground during the key board.  
It's really low in the mix. If it exists it should be played 
like this.

Keyboard Riff

a|-----7---5---3-------------
real low 

Main Riff

g|-----------------------------------------
d|-----------------------------------------
a|---4-4-4-4-4-2-4-2-4-----------------
e|------------------------------------------

Riff 2

g|-----------------------------------------
d|-----------------------------------------
a|-----------------------------------------
e|---5-8----------------------------------

let the notes ring


order
the bass comes in with the Marilyn singing
so you go from there
Riff 1 4x
Keyboard Riff 1x
Main Riff 16x
Riff 2 3x
Riff 1 6x
Main Riff 8x
Riff 2 4x
Main Riff 4x
Riff 2 12x or 16x figure it out the song ends so that the clue.