The Dope Show
Tabbed By  Cleric666 shark69r@terranova.net

main riff
g-------------------------------
d-------------------------------
a-----------5-5/3-3/2-2-2-
E-0-0-00/3-0---------------

chorus riff
(there's lots of pretty, pretty ones...)

g--------------------------------------------------------------------------
d-------------------------------------------------------------------------
a-77777777/10-10-10-10-10-10-/55555555/3333333/2
E-------------------------------------------------------------------------

bridge riff
(they love you when you're on all the covers...)

g--------------------------------------
d--------------------------------------
a--------------------------/5-5--5/7
E-0-0-0/3-3-3/5-5-5--------- (play twice)

then...

g-------------
d-------------
a-7/5/3-----
E------3-----