Dope Show
Tabbed by Mark "twiggs" Dale (m_dale@hotmail.com,icq:5813411)

VERSE & CHORUS
G|----------------------------|
D|----------------------------|
A|--------------5-5-3-3-3-3-2-|
E|-0--0-0-0-3-0---------------|

1ST & 2ND PRE-CHORUSES (0:48,2:03) 
(Lots of pretty....)
G|------------------------------------------------------------------------|
D|------------------------------------------------------------------------|
A|-7-7-7-7-7-7-7-10-10-10-10-10-10-10-10--5-5-5-5-5-5-5-3-3-3-3-3-3-3-3-2-|
E|------------------------------------------------------------------------|

BRIDGE (1:20,2:35) 
(They love you....)
G|------------------------------------------------------|
D|------------------------------------------------------|
A|-5/7---7---7--7/10--10---10--10/12--12---12--5--5---5-|
E|------------------------------------------------------| x3 then

G|-------------------------------------|
D|-------------------------------------|
A|7--7---7--5--5---5--3--3---3---------|
E|-----------------------------3--3---3|

3RD PRE-CHORUS (2:56)
(Lots of pretty....)
G|-------------------------------------------------------------------------|
D|-------------------------------------------------------------------------|
A|-7-7-7-7-7-7-7-10-10-10-10-10-10-10-10--5-5-5-5-5-5-5-3--3-3-3-3-3-3-3-2-|
E|-------------------------------------------------------------------------|

G|-----------------------------------|
D|-----------------------------------|
A|-----------------------------------|
E|0-0-0-0-0-0-0-3--3-3-3-3-3-3-3-(0)-|

" i like to write stuff that makes people go out and do drugs and fuck shit up"
  - Twiggy Ramirez