Mechanical Animals
Tabbed By Geoff Krempa

Intro
-----------------------
-0-2222-2--------------
------------2 slide 7--
----------0------------ x2

main rif
---------------------------
---5-4-2-----5-4-2-0-----0-
---------2-----------3-2---
-0---------0--------------- x2

i'm never gonna save the world part
-----------------------------------------
-55555555555-44444444444-----------------
-------------------------33333333333-----
----------------------------------------- x2 this is just the basics for 
this part, i normally throw in some slides, as long as you base this 
part off the chords and hit it all at the right times it will sound good

They'll never be... part
----------------------
--2-0-----0-2-0-----0-
------3-3-------3-3---
---------------------- play this until the break

the end part "suicide king" part
--000-------000--------------
------2-0-2-----2-0-2--0-----
--------------------------3--
----------------------------- play this until the song ends