Disassociative
Tabbed By Geoff Krempa

intro 
----------------------
----------------------
-0--3--5--2-3-2-00----
---------------------- 

main rif and chorus
---------------------------------------------------------
---------------------------------------------------------
---------------------------------------------------------
-11111111-slide 55555555 slide 88888888 slide back to 1-- *note* the 
main rif and the chorus are the same

the part after the chorus 'nervous system' part
-----------0-2-4-----------0-2-4-----
-----0-2-4-----------0-2-4-----------
-2-4-------------2-4-----------------
-------------------------------------

at the very end, real quietly
--22-4-5-4-22-4-5-4-
--------------------
--------------------
--------------------