Irresponsible Hate Anthem
Tabbed by shroom

verse/refrain

g|--------------------------------------------------|
d|--------------------------------------------------|
a|------11-33-44-33-11--------11-33-----------------|
e|-33------------------------33-------------1111----|

bridge

g|------------------------------------------------------------------------|
a|------------------------------------------------------------------------|
d|------44-33-44-33-44------44-33-44-33-44------44-33-44-33-44-1111-------|
g|-33-----------------------33----------------------33--------------------|