The Beautiful People
Tabbed by Trent1

Beginning (play a couple of times)

G|-----------------------|
D|-----------------------|
A|-----------------------|
E|--x-x-x-x-x--x-x-x-x-x-|

(play until verse starts)

G|-----------------|
D|-----------------|
A|-----------------|
E|--0-6-0----0-6-0-|

Verse

G|--------------------------------|
D|--------------------------------|
A|--------------------------------|
E|--0-6-0-6-0---0-6-0-6-0---0-3-0-|

Mellow prechorus (There's no time to discriminate...)

G|-----------------------|
D|-----------------------|
A|-----------------------|
E|--0---4---3-----3/8/10-|

G|-----------------------|
D|-----------------------|
A|-----------------------|
E|--0---4---3-----3/5/10-|

"The Beautiful People, The Beautiful People" at the end

G|------------|
D|------------|
A|------------|
E|--0-0-0-6-0-|

Substitute these for the original verse notes near the end

G|--------------------------------|
D|--------------------------------|
A|--------------------------------|
E|--0-6-0-6-0---0-6-0-6-0-6-5-3-0-|