Little Horn
Transcribed by Trent1

Verses

G|--------------------------------|
D|--------------------------------|
A|--------------------------------|
E|--3-0-0-3-0-0-3-0-0-3-0-0-3-0-5-|

G|--------------------------------|
D|--------------------------------|
A|--------------------------------|
E|--3-0-0-3-0-0-3-0-0-3-0-0-6-5-3-|

"Little Horn is born...." + "Save yourself from this...."

G|----------------------------------|
D|----------------------------------|
A|----------------------------------|
E|--6-6-6-6-6-6-6-6-6-6-6-6-6-5-3-5-|

Chorus

G|-------------------------------------------------------|
D|-------------------------------------------------------|
A|-------------------------------------------------------|
E|--0---6-5-3--3-5--5-1--3-0-0-3-0-0-3-0-0-3-0-0-3-0-3-0-|

Solo right before "Everyone will suffer now" (play 4 times)

G|---------------------|
D|---------------------|
A|---------------------|
E|--6--5--3--10--0-0-0-|

G|---------------------------|
D|---------------------------|
A|---------------------------|
E|--6--5--3--10--1-1-1-1-1-0-|