Minute of Decay
tabbed by jacob wall

standard bass tuning

riff 1

G|------------------------------------------------|
D|------------------------------------------------|
A|--0--0--0--0--3--3--3--3--2--3--2---------------|
E|-----------------------------------1---1--1--3--|

riff 2 (distortion)                 fill for riff 2

G|---------------------------|--------------------------|
D|---------------------------|--------------------------|
A|---------------------------|--------------------------|
E|--3--3--3--3--3--3--3h4h5--|--3--3--3--3--3--3--3--1--|

riff 3 (bridge riff i guess)

G|--------------------------------------------------|
D|--------------------------------------------------|
A|--------------------------------------------------|
E|--0--0--0--0--0--0--0--0--1--1--1--1--1--1--1--1--|