Sweet Dreams
Tabbed by Carlos Fontecha 

the bass begins at "some of them..." part:

E-8-------   some of them want to use you

E-8-------   some of them wanna get used by you

E-8-------   some of them want to abuse you

E-8----4--3--  some of them want to be abused

--------------------------------

bass figure 1:

E-4444444444444333/8888889\44444443444444443--

---------------------------------

then comes the wah part

A-3---------
E------4--3-

play this until "some of them part..", where you
will play this:

E-8--9\4-3---8--9\4-3-(3)/(9)---8--9\4-3---8--9\4-3--
 some of..   some of them..     some of..  some of..

----------------------------------

play figure 1 while manson sings "i wanna use you and abuse you..."

----------------------------------

A-3-(3)/(9)-----------------------------
E-----------------------------4-(4)/(9)-

  movin on..hold your head    movin on keep your head

E-444\- movin' ooooooon!!!!!

----------------------------------

guitar solo part:

A-33333333---------
E---------44443333-

-----------------------------------then use the other bass figures
I wrote above 'til the end.