Cake and Sodomy
KEY:
x =3D palm mute
/ =3D slide

intro

g|------------------------------|
d|------------------------------|
a|------------------------------|
e|--2--1--0--2--1--0--2--1--0---|

verses 

a|-----------------|
e|---7--7////////0-|

chorus

g|----------------------------------------------------|
d|--------------------*hold this note for 2 beats-----|
a|--------------------5-------------------------------|
e|--7-7--x-x-x-x-5-5------2-2-2-2-2-2-5-5-5-5-5-5-5-5-|

g|------------------------------------------------------|
d|------------------------------------------------------|
a|------/////////----7---5------------------------------|
e|--7-7----------5-5--------2-2-2-2-2-2-5-5-5-5-5-5-5-5-|

alternate these riffs

bass part played under solo

a|--------------------------------|
e|--2-2-2-2-2-2-5-5-5-5-5-5-5-5-0-|

a|--------------------------------|
e|--2-2-2-2-2-2-5-5-5-5-5-5-5-5-7-|