Lunchbox
verses

g|------------------------------------|
d|----------------5-5-5-5-5-5---7--5--|
a|----7--7--5-5-5---------------------|
e|------------------------------------|

g|----------------------------------------|
d|----------------5-5-5-5-5-5---7//9//7---|
a|----7--7--5-5-5-------------------------|
e|----------------------------------------|

"pow pow pow" part

g|----------------------|
d|--------7-----5-------|
a|------------------5---|
e|----------------------|

chorus

g|---------------------------------------------------------|
d|-------------------5-------------------------------------|
a|--------7-------------------5----------7-7-7-7-7-7-7-7-7-|
e|---------------------------------------------------------|