Cyclops

Intro

G|----------------------------------------------------|
D|----------7---------7-------------------------------|
A|--0-0-0-0---0-0-0-0--------etc----------------------|
E|----------------------------------------------------|

variations of these three

G|----------------------------------------------------|
D|----------------------------------------------------|
A|----------------------------------------------------|
E|--0-0-0-0-1-0--3------------------------------------|

G|----------------------------------------------------|
D|----------------------------------------------------|
A|----------------------------------------------------|
E|--0-0-0-0-1-0--5------------------------------------|

G|----------------------------------------------------|
D|----------------------------------------------------|
A|---------------1/3----------------------------------|
E|--0-0-0-0-1-0---------------------------------------|

Chorus

G|----------------------------------------------------|
D|----------------------------------------------------|
A|-------6-6------------------------------------------|
E|-5-5-5-----5-5-5--3---------------------------------|

She can't see nothing, nothing at all

G|----------------------------------------------------|
D|-----------------------7----------------------------|
A|-0-0-0-0-0--0-0-0-0-0-----0-0-0-0-0---etc-----------|
E|----------------------------------------------------|