Dope Hat

intro

g|---------------------------------------------------|
d|---------------------------------------------------|
a|---------------------------------------------------|
e|---2-2-2-2-2-2-2---5--5----2-2-2-2-2-2-2-----7--5--|

verse

g|-------------------------------------|
d|-------------------------------------|
a|-----------4---4---3---3---2-3-2-3-2-|
e|--3-2--2-----------------------------|

right before the prechorus the verse goes

g|-------------------------------------|
d|-------------------------------------|
a|-----------4---4---3---3---7---7-----|
e|--3-2--2-----------------------------|

chorus

g|-------------------------------------|
d|-------------------------------------|
a|-------------------------------------|
e|-----7---7---7---7---3---3---3---3---|
repeat twice then

g|------------------------------------|
d|------------------------------------|
a|------------------------------------|
e|----9---9---9---9---5---5---5---5---|

repeat twice then

a|-----------------------------------------------------------------------=---|
e|------9-9-9-8-8-8-7-7-7-6-6-6-5-5-5-4-4-4-3-3-3-2-2-2---2-------2-----2=---|