Dope Hat
Tabbed By Geoff Krempa

main rif
-------------------------------------
-------------------------------------
----44-33-2-0--------44-33-2-0-------
-22-----------2-0-22-----------2-0---

intro
--------------------------
--------------------------
--------------------3-2---
--2222--5555--2222-------- x2

chorus
--------------------------
-2222------4444-----------
------3333------5555------
-------------------------- x2

then go chromatically down 
-----------------------
-4-3-2-1-0-------------
-----------4-3-2-------
-----------------2-----