Get Your Gunn

verse
g|----------------------------------|
d|----------------------------------|
a|---------------------------7------|
e|----0--0--7--0--6--0--5-0-----0---|

chorus

g|---------------------------------------------|
d|---------------------------------------------|
a|--7--7--7---1--1---1-------------------------|
e|---------------------3--3--3-3--4--3--3-3-3--|

g|--------------------------------------------------|
d|--------------------------------------------------|
a|-------------------------------------------8--8---|
e|---0--0--0----6--6--6---9--9--9--9--9--9----------|