Wrapped in Plastic

intro

g|-----------------------------------------|
d|-----------------------------------------|
a|-----------------------------------------|
e|----2---------5------2---------7---------|

a|-----------------------------------------|
e|----2---------5------2---------8---------|

a|-----------------------------------------|
e|----2---------5------2---------8---7-----|

prechorus 1 (played after intro and before prechorus2)

a|----------------------------------------|
e|----0---2--2----5----0-2-0-2-0----8--7--| 

=

a|----------------------------------------|
e|----0---2--2----5----0-2-0-2-0----7--8--|

a|----------------------------------------|
e|----0---2--2----5----0-2-0-2-0----8--7--|

a|----------------------3--2--0-----3--|
e|----0---2--2----5--------------2-----|

verses

a|----------------------------------------|
e|----0---2--2----5----0-2-0-2-0----8--7--|
a|----------------------------------------|
e|----0---2--2----5----0-2-0-2-0----7--8--|

mellow prechorus 2

g|------------------------------|
d|---------6-----6-------6------|
a|------7-----7-----7-7----7----|
e|------------------------------|

g|-------------------------------|
d|---------6-----7-------6-------|
a|------4-----4-----4-4----4-----|
e|-------------------------------|

g|------------------------------------------------------|
d|---------6-----6-------6------------------------------|
a|------7-----7-----7-7---------------------------------|
e|-------------------------7----------------7-----------|

chorus

g|-------------------------------------|
d|-------------------------------------|
a|-------------------------------------|
e|---0---0--0-0----2---2---2----5------|

a|-------------------------------------|
e|---0---0--0--0---5---5---5--4--------|