Sweet Tooth
intro + chorus

g|---------------------------------------------------|
d|---------------------------------------------------|
a|---------------------------------------------------|
e|-----0---0---7---0---3----0----5---5---3--2--3--2--|

g|---------------------------------------------------|
d|---------------------------------------------------|
a|---------------------------------------------------|
e|-----0---0---7---0---3----0----5---5-----3----2----|

verses

g|---------------------------------------|
d|---------------------------------------|
a|---------------------------------------|
e|---2-2-2-2--1-1-1-1--0-0-0-0--1-1-1-1--|

then for the verse right before the chorus

g|---------------------------------------|
d|---------------------------------------|
a|---------------------------------------|
e|---2--------1---------0--------1-------|