Down in the Park

verse

g|-----------------------------------------------------------------------=---|
d|-----------------------------------------------------------------------=---|
a|-3-3-3-3-3-3-3-3----5-5-5-5-5-5-5-5----1-1-1-1-1-1-1-1-----------------=---|
e|---------------------------------------------------------1-1-1-1-1-1-1-=1-1|

 =
a|-3-3-3-3-3-3-3-3----5-5-5-5-5-5-5-5----0-0-0-0-0-0-0-0-0-0-0-0-0-0-0-0-=0--|
e|-----------------------------------------------------------------------=---|

chorus

g|---------------------------------------|
d|---------------------------------------|
a|---------------------------------------|
e|----5----------3---------1--------1----|