Coma White (Acoustic)

Song: Coma White Acoustic 
Artist: Marilyn Manson 
Album: the Last tour on Earth (Bonus Disk) 
Release: 1999 
Tabed by:  Christian Siemer 
           ZmR-51emer@t-online.de 
           31.10.2000 
           Germany 

Intro and Riff 1: 
e|----------------------| 
h|---0---0---0---0--0-0-| 
G|-2---2---2---2--s5-5--| 2x 
D|----------------------| 
A|----------------------| 
E|----------------------| 

Third time: 
e|--------------------------------------| 
h|---0---0---0---0--0-0-0-0-0-0-0-0-0-0-| 
G|-2---2---2---2--s5-5s7-7-7-7s5-5s4-4--| 
D|--------------------------------------| 
A|--------------------------------------| 
E|--------------------------------------| 

Fills: 
„Today, today, to run away“ 
e|-8-|-7-|-5-|-5-| 
h|---|---|---|---| 
G|---|---|---|---| 2x 
D|---|---|---|---| 
A|---|---|---|---| 
E|---|---|---|---| 

Chorus: 
Am                       C 
 A pill to make you numb  A pill to make you dumb 

G                  F 
 A pill to make you anybody else 

Am                        C              G                F 
 But all the drugs in this world  Won't save her from herself 

Fills: 
e|-------------| 
h|-----5--3--5-|and so on 
G|-/2----------| 
D|-------------| 
A|-------------| 
E|-------------| 

Bridge: 
e|-----------------------------------|-------------------| 
h|-----------------------------------|-------------------| 
G|---------5-7-#---------5-7-#-------|--------7-5-#------| 
D|-7-7-7-7-5-7-#-6-6-6-6-5-7-#-------|7-7-7-7-7-5-#-3-3--| 
A|-7-7-7-7-3-5-#-6-6-6-6-3-5-#-------|7-7-7-7-5-3-#-3-3--| 
E|-5-5-5-5-------4-4-4-4-------------|5-5-5-5-------1-1--| 
 |                                   | 
e|-5-5-5-5-3-5-3-2---2-5-2-1-5-------| 
h|-----------------------------1h3p1-| 2x 
G|-----------------------------------| 
D|-----------------------------------| 
A|-----------------------------------| 
E|-----------------------------------| 

Outro: 
e|--------------- 
h|--------------- 
G|--4b5r4-------- repeat and fade 
D|---------7--5-- 
A|--------------- 
E|--------------- 
  

Song-Structure: 

  Intro 

  Riff1 

Something is cold and blank behind her smile 
She's standing on an overpass 
In her miracle mile 
(coma): 
"You were from a perfect world 
A world that threw me away today 
Today to run away 

  Chorus 

A pill to make you numb 
A pill to make you dumb 
A pill to make you anybody else 
But all the drugs in this world 
Won't save her from herself 

  Bridge 

  Riff 1 

Her mouth was an empty cut 
And she was waiting to fall 
Just bleeding like a polaroid that 
Lost all her dolls 
(coma): 
"You were from a perfect world 
A world that threw me away today 
Today to run away" 

  Chorus 

A pill to make you numb 
A pill to make you dumb 
A pill to make you anybody else 
But all the drugs in this world 
Won't save her from herself 

  Chorus 

A pill to make you numb 
A pill to make you dumb 
A pill to make you anybody else 
But all the drugs in this world 
Won't save her from herself 

  Bridge rhythm Guitar 

  Bridge rhythm Guitar & lead Guitar 

  Bridge rhythm Guitar & lead Guitar & Vocals 

  Chorus (instrumental) lead Guitar 

  Chorus (instrumental) rhythm Guitar & lead Guitar 

  Chorus rhythm Guitar & lead Guitar & Guitar playing Outro-Riff 

A pill to make you numb 
A pill to make you dumb 
A pill to make you anybody else 
But all the drugs in this world 
Won't save her from herself 

  Outro