Great Big White World
Tabbed by Adam Warren

ALBUM: MECHANICAL ANIMALS

STANDARD TUNNING
E A D G B E

INTRO/VERSE

G|----------5-----3b-----------5---3----2----|
D|-----5---------------------5---------------|
A|--3---------------------3------------------|

CHOURS

BECAUSE ITíS A GREAT BIG WHITE WORLD

G|---5---4--|
D|---5---4--|
A|---3---2--|

ALL MY STICHES ITCH  

D|---7----10-----|
A|---7----10-----|  
E|---5-----8-----|

BRIDGE  (DOSENíT REALLY SOUND RIGHT BUT ITS ALL I CAN THINK OF)

G|--5--7--9--11--|
D|--x--x--x--x---|
A|--3--5--7--9---|

IF YOU HAVE ANY CORRECTIONS PLEASE SEND THEM TO ME AT burnsac@iaccess.com.au