Great Big White World
Tabbed by Ron

STANDARD TUNNING
E A D G B E

INTRO/VERSE

----------------------------------------------------------------------
-------------4----3(4)----------------4----3--1-----------------------
-------5------------------------3--5------------------3---------------
----------------------------------------------------------------------
----------------------------------------------------------------------
----------------------------------------------------------------------
Then there's the keyboard part and then it goes like this 2x
(Fig 2)
---------------------------------------------------------
----4--3------4--3-----4-------4--3-----4--3------4------
-5----------5---------5-------4---------4---------4------
---------------------------------------------------------
---------------------------------------------------------
---------------------------------------------------------

---------------------------------------------------
4--3------4--3------4------4--3-----4--3------4----
3----------3----------3------2---------2--------2--

Chorus:

Chords are- A#5 G#5 C5

Then it goes- F5 G#5 C5 A#5 G#5 G5
I'm getting my guitar teacher to work out the solo for me cause I can't be arsed. I'll send that soon as I've got it.
IF YOU HAVE ANY CORRECTIONS PLEASE SEND THEM TO ME AT jarrett@lineone.net