Great Big White World
Tabbed by Alex Harmon

riff1
G-----8--9b--------------8--9------------------------
D-10------------8---10--------10---------------------
 
riff 2
G-----8--7-----8--7------8-------8--7--8--7---8----8--7---8--7---8------8--7----8--7-----8-----
D-10-------10-------10--------9------9------9----8-------8-------8------7-------7---------7----
 
riff 3
E--------------------------------------------------------------------8---
B------------------------------------------------------------------------
G------8--8--10-10b----8-----------------8---10-10b---8------------------
D-10--------------------------10-------10--------------------------------
 
chorus
F      Ab      C     Bb      Ab      G