Great Big White World
Tabbed by MUTANT_SPUNK_MONKEY@USA.NET


IVE SPLIT IT UP INTO PARTS SO LISTEN TO THE SONG TO FIND WHERE
THEY FIT.

PART 1
E|----------------------|----------------------------|
B|----------------------|----------------------------|
G|5--8--7^--5--8--7--5--|----5--8--7^-----5--8--7--8-|
D|----------------------|8------------8--------------|
A|----------------------|----------------------------|
E|----------------------|----------------------------|

PART 2 (SOME KIND OF TREMOLO EFFECT WITH CHORUS)
E|----------------------------------------------------
B|16--13--18--15--13--9--13--9------------------------
G|----------------------------------------------------
D|----------------------------------------------------
A|----------------------------------------------------
E|----------------------------------------------------

PART 3 (PLAY X2)
E|--------------|-------------|-------------|--------------|
B|--------------|-------------|-------------|--------------|
G|8-7-5-8-7-5-4-|8-7-5-8-7-5--|8-7-5-8-7-5--|8-7-5-8-7-5-5-|
D|--------------|-----------8-|-----------7-|-------------8|
A|--------------|-------------|-------------|--------------|
E|--------------|-------------|-------------|--------------|

PART 4 (I USE SLIDES BUT U CAN USE HAMMER ONS THOUGH SLIDES
        SOUND BETTER)(PLAY AS OFTEN AS REQUIRED)
E|---------------8-|------------8^-|
B|-----6/8/6-------|-----6/8/6-----|
G|5/8---------8----|5/8------------|
D|-----------------|---------------|
A|-----------------|---------------|
E|-----------------|---------------|

PART 5 (the chorus chords)(heavy dist)(the bracketed notes can be bent
					as sometimes it sounds better)
E|----x--|--x--|---x--|--x--|--x--|--x--|------------------------------
B|----x--|--x--|---x--|--x--|--x--|--x--|------------------------------
G|----x--|--x--|--(5)-|--3--|--x--|--x--|------------------------------
D|----3--|--6--|--(5)-|--3--|--6--|--5--|------------------------------
A|----3--|--6--|---3--|--1--|--6--|--5--|------------------------------
E|----1--|--4--|---x--|--x--|--4--|--3--|------------------------------


PART 6 (THE SOLO)(THIS IS THE WAY I PLAY IT IT MAY NOT BE RIGHT BUT
		  IT SOUNDS JUST AS GOOD)
		 (USE A FLANGER AND OR PHASER AND EITHER CONTINUALLY
		  SLIDE UP TO THE NOTES OR USE VIBRATO(wiggle your finger)
		  ON THEM)


E|-13--15--16--18--20-|-13h20-13h20-13h20-13h19-13h18-17/-|
B|--------------------|-----------------------------------|(then into
G|--------------------|-----------------------------------| chorus)
D|--------------------|-----------------------------------|
A|--------------------|-----------------------------------|
E|--------------------|-----------------------------------|


part 7 (FINAL CHORD)
E|--x--|
B|--x--|
G|--3--|
D|--3--|
A|--1--|
E|--x--|


while the last solo is being played a 2nd guitar is playing notes related
to the solo along with it.  if u slide down the strings from high e to low e
u can get the same sort of ending as the song anyway i couldnt be arsed
any more so i hope ya appreciate it.