The Dope Show
Tabbed by Never Born slborn@zoomnet.net

this intro is played with a wah wah petal and a
trem bar (wammy bar), trem system has to be a 
floyed rose or something like that so you can
vibrate pull on the wammy instead of pressing in,
the 3rd sevens are bent (^ is under them) dont bend 
the 5
intro
e|-------------------------------------------
b|-5-5-5------5-5-5-----5-5-5-----5-5-5------
g|-7-7-7------7-7-7-----7-7-7-----7-7-7------
d|-----^----------^---------^---------^------
a|-------------------------------------------
e|-------------------------------------------
trem vib ~~~~     ~~~~       ~~~~      ~~~~

e|-------------------------------------------
b|-------------------------------------------
g|-------------------------------------------
d|-x-9-9-9-9-9-9-9-9-12-12-12-12-12-12-12-12-
a|-x-7-7-7-7-7-7-7-7-10-10-10-10-10-10-10-10-
e|-------------------------------------------

e|-------------------------------------------------
b|-------------------------------------------------
g|-------------------------------------------------
d|-------------------------------------------------
a|-12-12-12-12-12-12-12-12-10-10-10-10-10-10-10-10-
e|-10-10-10-10-10-10-10-10--8--8--8--8--8--8--8--8-

e|---------------------------------------
b|---------------------------------------
g|---------------------------------------
d|---------------------------------------
a|-3/7-7-5-5-7-5-5-5/7~-7-5-5-7-5-3-3/7~-
e|---------------------------------------

e|---------- e|----------------------
b|---------- b|----------------------
g|---------- g|----------------------
d|-9-7-5-3-- d|-^---7/9-^---7/9------
a|-7-5-3-1-- a|-7-5-----7-5----------
e|---------- e|----------------------

this one is a little strange.. sounds strange on the cd
but if you watch the vma awards you'll understand it
solo
e|-----------------------------------------
b|-10-10-10--10-10-10--10-10-10--10-10-10--
g|-12-12-12--12-12-12--12-12-12--12-12-12--
d|--------^---------^---------^---------^--
a|-----------------------------------------
e|-----------------------------------------

e|-12-12-12------------12-12-12------------
b|-12-12-12--15-15-15--12-12-12--15-15-15--
g|-----------12-12-12------------14-14-14--
d|-----------------------------------------
a|-----------------------------------------
e|-----------------------------------------

e|-12-12-12------------12-12-12----------
b|-12-12-12------------12-12-12----------
g|-----------15-15-15-----------15-15-15-
d|-----------14-14-14-----------14-14-14-
a|---------------------------------------
e|---------------------------------------
end of the song (we're all stars now...) let last note ring
e|--------------------------------------------------
b|-14-14-14--14-14-14--14-14-14--14-14-14--14-------
g|-16-16-16--16-16-16--16-16-16--16-16-16--16~~-----
d|-----^--^------^--^------^--^------^--^---^-------
a|--------------------------------------------------
e|--------------------------------------------------