The Dope Show
TABBER:DUSTIN MCLAUGHLIN
TUNING:STANDARD

INTRO\MAIN RIFF:

E----------------------------------------------------------------------
G----------------------------------------------------------------------
B---------------8-8--6-------------------------------------------------
D--3-3-3--6--3--8-8--6-------------------------------------------------
A--3-3-3--6--3--6-6--4-------------------------------------------------
E--1-1-1--4--1---------------------------------------------------------
                         "DRUGS THEY SAY MAKE US FEEL SO HOLLOW"

CHORUS:

E----------------------------------------------------------------------
G----------------------------------------------------------------------
B--9-9-9-9--12-12-12-12------------------------------------------------
D--9-9-9-9--12-12-12-12--12-12-12-12--9-9-9-9--------------------------
A--7-7-7-7--10-10-10-10--12-12-12-12--9-9-9-9--------------------------
E------------------------10-10-10-10--7-7-7-7--------------------------
                         "THERES LOTS OF PRETTY PRETTY ONES"

2ND RIFF:

E----------------------------------------------------------------------
G----------------------------------------------------------------------
B----------------------------------------------------------------------
D------2--------5--------7--------5------------------------------------
A----2---2----5---5----7---7----5---5----------------------------------
E--0--------3--------5--------3----------------------------------------
                         "THEY LOVE YOU WHEN YOUR ON ALL THE COVERS"

SOLO THINGIE:

E---------------------------12-----------------------------------------
G----12--10-----------10-12--------------------------------------------
B--9--------9-9-12-9---------------------------------------------------
D----------------------------------------------------------------------
A----------------------------------------------------------------------
E----------------------------------------------------------------------

NOTE:I KNOW THE MAIN RIFF IS ON BASS BUT I JUST PUT IT DOWN AS GUITAR
ONCE AGAIN ENJOY.