The Dope Show

Standard tuning: E A D G B E

1------------------------------------------------
2------------------------------------------------
3-7^-7^-9-7^-7^-9-7^-7^-9-7^-9-9-8-9-
4------------------------------------------------
5------------------------------------------------
6------------------------------------------------
(with heavy flanging)
Play this at the "There's lots of pretty,pretty ones"
part.

RIFF A
1-----------------------------------------------------------------------------
-------------
2-----------------------------------------------------------------------------
-------------
3-----------------------------------------------------------------------------
-------------
4-9-9-9-9-9-9-9-9-12-12-12-12-12\-7-7-7-7-7-7-7-7-5-5-5-5-5-5-5-4-
5-7-7-7-7-7-7-7-7-10-10-10-10-10\-5-5-5-5-5-5-5-5-3-3-3-3-3-3-3-2-
6-----------------------------------------------------------------------------
--------------

Play at "They love you...."

RIFF B
1-----------------------------------
2-----------------------------------
3-----------------------------------
4-2--2--0-2-#-2--2--0-2--2h-
5-----------------------------------
6--0--0--------0--0----3`--------
(repeat this 5 times)
this is the guitar part played over the 5th time
1------------------------------
2------------------------------
3------------------------------
4-9-----7-----5------3------
5-7-----5-----3------1------
6------------------------------

"There's lots of pretty....."
(Return to RIFF A)

"They love you........."
(Return to RIFF B)

Play at "We're all stars now....."
1---------------------------------
2---------------------------------
3---------------------------------
4-9-9-9-12-7-7-5-5-4-------
5-7-7-7-10-5-5-3-3-2-------
6----------------------------------

*There are a bunch of lead guitar parts in this song but I didn't
put them in because it would take too long. If you would like to 
know them get the November 1998 Edition of Guitar World.*

KEY

^=full bend
\=slide
#=rest for a little less than 1 beat
h=hold that note for a little more than 1 beat
`=half bend