Mechanical Animals
Tabbed by Adam Warren

SONG: MECHANICAL ANIMALS
ALBUM: MECHANICAL ANIMALS

STANDARD TUNNING
E A D G B E

INTRO

G|---9-----12---|
D|---9-----12---|
A|---7-----10---|

CHOURS

I’M NEVER GONNA BE THE ONE FOR YOU

G|---12--9--|
D|---12--9--|
A|---10--7--|


PLAY THIS BIT AFTER “ANYTHING AT ALL”

G|------9---------------12------|
D|----9---9---------12-----12---|
A|--7------------10-------------|


BUT THEY’LL NEVER BE GOOD TO YOU  (LIVE ACOUSTIC)

      G    D    ?
E|--3----2----------|
B|-------3----------|
G|-------2---2------|
D|-----------2------|
A|--2---------------|
E|--3---------------| 
 
PLAYING THE SUICIDE KING

G|--9--12--11--|
D|--9--12--11--|
A|--7--10---9--|


IF YOU HAVE ANY CORRECTIONS PLEASE SEND THEM TO ME AT burnsac@iaccess.com.au