Mechanical Animals
Tabbed by Ron

STANDARD TUNNING
E A D G B E

INTRO

G|---7/9-----14/16---|
D|---7/9-----14/16---|
A|---5/7-----12/14---|

CHOURS

I’M NEVER GONNA BE THE ONE FOR YOU

E|----0--0--|
B|----0--0--|
G|---12--9--|
D|---12--9--|
A|---10--7--|


PLAY THIS BIT AFTER “ANYTHING AT ALL”

e|------0--7--12---7--5----5h7--|


BUT THEY’LL NEVER BE GOOD TO YOU  (LIVE ACOUSTIC)

  G    D    Asus2
E|--3----2----------|
B|--0----3----------|
G|--0----2---2------|
D|--0----0---2------|
A|--2--------0------|
E|--3---------------| 
 
PLAYING THE SUICIDE KING

E|--0--0----0--|
B|--0--0----0--|
G|--9--12--11--|
D|--9--12--11--|
A|--7--10---9--|


IF YOU HAVE ANY CORRECTIONS PLEASE SEND THEM TO ME AT jarrett@lineone.net