Rock is Dead
TABBER:DUSTIN MCLAUGHLIN
TUNING:DROPPED D TUNING

INTRO\MAIN RIFF:

E----------------------------------------------------------------------
G----------------------------------------------------------------------
B----------------------------------------------------------------------
D--4--4--X-X-X--4--4--X-X-X--4--4--X-X-X--4--4--7----------------------
A--4--4--X-X-X--4--4--X-X-X--4--4--X-X-X--4--4--7----------------------
D--4--4--X-X-X--4--4--X-X-X--4--4--X-X-X--4--4--7----------------------
                   "ALL SIMPLE MONKEYS WITH ALIEN BABIES"

CHORUS:

E----------------------------------------------------------------------
G----------------------------------------------------------------------
B----------------------------------------------------------------------
D--4--2--4--2--4--4-4--7--2--0-2-0-2-2-2--5----------------------------
A--4--2--4--2--4--4-4--7--2--0-2-0-2-2-2--5----------------------------
D--4--2--4--2--4--4-4--7--2--0-2-0-2-2-2--5----------------------------

                   "ROCK IS DEADER THAN DEAD"


PRE CHORUS:

E----------------------------------------------------------------------
G----------------------------------------------------------------------
B----------------------------------------------------------------------
D--7-5-------------------------7-5-------------------------------------
A--7-5-------------------------7-5-------------------------------------
D--7-5-------------------------7-5-------------------------------------

                   "ANYTHING TO BELONG"


NOTE:THIS IS MY FIRST TIME TABBING BESIDES THE CD JUST CAME OUT OH WELL
     I SHOULD BE TABBING A FEW MORE MANSON SONGS IN THE FUTURE SO ENJOY.