Rock is Dead
Tabbed by M

Standard Tuning (EADGBE)

-------------------
NH=Natural Harmonic
/ =Slide Up
\ =Slide Down
-------------------

Intro/Post-Chorus Riff:

       NH        NH          NH
D-4-4-----X--4-4-----X--4-4-----X--4-4--7
A-4-4--3--X--4-4--3--X--4-4--3--X--4-4--7
E-2-2--3--X--2-2--3--X--2-2--3--X--2-2--5

Pre-Chrous Riff:

D-2----5----7
A-0----3----5

Chorus Riff:

D-11-11--9/11\9--11-11--9/11\9--9-9--7/9\7--9-9--7/9\7--7-7--6/7\6--7-7--6/7\6-
A--9--9--7/ 9\7---9--9--7/ 9\7--7-7--5/7\5--7-7--5/7\5--5-5--4/5\4--5-5--4/5\4-

D-6-6-6-6-6-6-9-9-9-9-9-9
A-4-4-4-4-4-4-7-7-7-7-7-7