Rock is Dead
tabbed by drew

Standered Tuning

Intro:
Feedback (while holding the 4th fret e string)
e-----(4)-----(4)-----(4)-----------------------------
b-----(4)-----(4)-----(4)-----------------------------
g-----(x)-----(x)-----(x)-----------------------------  X 4
d-6-6-----6-6-----6-6-----6-/-9-----------------------
a-6-6-----6-6-----6-6-----6-/-9-----------------------
E-4-4-----4-4-----4-4-----4-/-7-----------------------

Verse Bassline: During this the guitar just plays s bunch of scratches

g-----------------------------------------------------
d------------------------------------------6-4--------
a----------------------------------------------6------
E-4-4---4-4---4-4--4-/-7---4-4---4-4---4-4------------

Pre-Chorus:

e-----------------------------------------------------
b-----------------------------------------------------
g-----7-7-/-9-----7-7-/-9-----------------------------
d--9--7-7-/-9--9--7-7-/-9-----------------------------
a--9--5-5-/-7--9--5-5-/-7-----------------------------
E--7-----------7--------------------------------------

Chorus:

e-----------------------------------------------------
b-----------------------------------------------------
g--13-13-12-12-12-13-13-13-12-12-12-------------------
d--13-13-12-12-12-13-13-13-12-12-12-------------------
a--11-11-9--9--9--11-11-11--9--9--9-------------------
E-----------------------------------------------------

e-----------------------------------------------------
b-----------------------------------------------------
g--11-11-9-9-9-11-11-11-9-9-9--9-9-8-8-8-9-9-9-8-8-8--
d--11-11-9-9-9-11-11-11-9-9-9--9-9-8-8-8-9-9-9-8-8-8--
a--9--9--7-7-7-9--9--9--7-7-7--7-7-6-6-6-7-7-7-6-6-6--
E-----------------------------------------------------

e-----------------------------------------------------
b-----------------------------------------------------
g-----------------------------------------------------
d--8-8-8-8-8-8-11-11-11-11-11-------------------------
a--6-6-6-6-6-6-9--9--9--9--9--------------------------
E-----------------------------------------------------

After the "god is in the t.v." part play the intro again
with thr la la la la la la

Bridge: the little solo part

e--4-4-2-4-2--4-4-2-4-2--4-4-2-4-2--4-4-2-4-7---------
b-----------------------------------------------------
g-----------------------------------------------------
d-----------------------------------------------------
a-----------------------------------------------------
E-----------------------------------------------------

That's about all the guitar parts in the song, but theres
a lot of keyboard parts i didn't tab. If u have n e 
complaints/comments/crrections/ect amail me at jinxxxed@hotmail.com