Disassociative
Tabbed by RON


STANDARD TUNNING
E A D G B E

INTRO/VERSE

|---------------------------------------------------------------------
|---------------------------------------------------------------------
|-------5------------------------------5-----------------------------
|---------7-------12-----10--------5---------10--9-----7---7----
|-----7--------12--------10------5--------10-----9-----7---7----
|---5--------10----------8------3--------8--------7-----5---5----
Bridge:
|-------------------------------------------------------------
|-------------------------------------------------------------
|-------------------------------------------------------------
|--9----7----2-----------------------------------------------
|--9----7----2-----------------------------------------------
|--7----5----0-----------------------------------------------

This is the bridge where he sings "the nervous system's down…"



CHORUS	

I CAN NEVER GET OUT OF HERE

|---------------------------------------------------------
|---------------------------------------------------------
|---------------------------------------------------------
|---------------------------------------------------------
|---------------------------------------------------------
|--10--7--10--7--12--7-(8)---------------------------

IF YOU HAVE ANY CORRECTIONS PLEASE SEND THEM TO ME AT jarrett@lineone.net