-Disassociative
Tabbed By Josh Godin ( heartrot@hotmail.com)

Standard Tuning: EADGBE

Chord Formations:
   C     Cm    X     Xm 
E|--0--|--0--|--0--|--0--|
B|--1--|--3--|--3--|--5--|
G|--0--|--0--|--0--|--0--|
D|--2--|--4--|--2--|--4--|
A|--3--|--5--|--3--|--5--|
E|-----|-----|-----|-----|

Other than that C, i have no clue what those chords are. but, you have to use them to let the strings ring at the necessary times, or the song won't sound right. so, i'll just put letters above the chord.. should be able to go by that.. *note* just incase someone didn't realize it.. if you use your middle, ring and pinky fingers for the Cm and X chords.. then you only have to pull off your pinky to go directly into a C. 

Intro/Verse:
 X           Xm            C         Cm
|-------------------0-------------------------------
|------3----/-----5-5------------1------------------
|--------0--/-----0-0----------0---------0----------
|---2-------/---4------------2---------4----/9--7-7-
|-3---------/-5------------3---------5------/9--7-7-
|-------------------------------------------/7--5-5-
note: listen to the CD to get the timing and the strumming pattern worked out.

Chorus:
|--------------------------------------------------------------------------
|--------------------------------------------------------------------------
|--------------------------------------------------------------------------
|-3-3-3-3-3-3-3--/--7-7-7-7-7-7-7--/-10-10-10-10-10-10-10-9--7-7-7-7-7-7-7-
|-3-3-3-3-3-3-3--/--7-7-7-7-7-7-7--/-10-10-10-10-10-10-10-9--7-7-7-7-7-7-7-
|-1-1-1-1-1-1-1--/--5-5-5-5-5-5-5--/--8--8--8--8--8--8--8-7--5-5-5-5-5-5-5-
note:sometimes that B ( 799xxx ) chord is omitted.