Speed of Pain
Tabbed by Ron

STANDARD TUNNING
E A D G B E
BEST PLAYED ON A STEEL STRINGED ACCOUSTIC

I'm not sure that this is perfect but the intro riff sounds slightly better than the other versions I've seen.
INTRO

E|-------0-------|
B|-0-----1-------|
G|-0-----0-------|
D|-2-----2-------|
A|-2-----2-------|
E|-0-----0-------|


VERSE, BRIDGE AND CHORUS
<---x2--->
E|-------0--|----0-----0|
B|-0-----1--|-0--0-----1|
G|-0-----0--|-0--2-----2|
D|-2-----2--|-2--2-----2|
A|-2-----2--|-2--0-----0|
E|-0-----0--|-0--0-----0|

FILL DURING SECOND BRIDGE:
D|-5H7-|

LIE TO ME, CRY TO ME ETC. MOVE DOWN A STEP TO GET THE BIT ABOUT DEAD HAIR.
G|-0-4-7---4-7P4--0-4-7-4---9P7-|

IF YOU HAVE ANY CORRECTIONS PLEASE SEND THEM TO ME AT jarrett@lineone.net