New Model No.15
Tabbed by DUSTIN MCLAUGHLIN

INTRO:

E--------------------------------------------------------------------------------------------
G--------------------------------------------------------------------------------------------
B--------------------------------------------------------------------------------------------
D--14-14-14-14-14----------------------------------------------------------------------------
A--14-14-14-14-14----------------------------------------------------------------------------
E--12-12-12-12-12----------------------------------------------------------------------------

MAIN RIFF:

E--------------------------------------------------------------------------------------------
G--------------------------------------------------------------------------------------------
B--------------------------------------------------------------------------------------------
D---4---4-2-4-4----4-2-4-4---4-2-4-4-4-7-7-7-------------------------------------------------
A--------------------------------------------------------------------------------------------
E--2-2-2--------2-2-------2-2----------------------------------------------------------------

LEAD TO CHORUS:

E--------------------------------------------------------------------------------------------
G--------------------------------------------------------------------------------------------
B--------------------------------------------------------------------------------------------
D--11--14--9--7------------------------------------------------------------------------------
A--11--14--9--7------------------------------------------------------------------------------
E--9---12--7--5------------------------------------------------------------------------------\


NOTE:I DONT THE WHOLE SONG BUT I THINK THATS BASICLY IT. IF YOU HAVE ANY QUESTIONS E-MAIL ME
     ROO@RAMPAGE2000.COM. ENJOY.