Fundamentally Loathsome
tabbed by
Dean Crowder
   
     h=hammer on note
     p=pull off note
     s=slide to note
     r=release bend
     ^=hold bend
     //=slide up to infinity
     \\=slide down to infinity
     ~~=tremolo

This is a close(if not perfect) tab of the solo from "fundamentally 
loathsome".  This is my first attempt to transcribe a song so if I'm
doing something wrong please e-mail me and let me know.  This is a 
little sloppy and I'm not sure of the very beginning but this should 
help you to get an idea of the way it's played.  I suggest you listen
to the song to help you get the rythm down.  Have fun! ^_^







e|-------------------------------------------------------------------
b|-------------------------------------------------------------------
g|-----------------------------------------------------------------7-
d|---------5h7p-----------------------------------7------7--9--------
a|--------------- h7--5---------7~~------/7--10----10----------------
e|-----------------------3\\-0-//------------------------------------

cont.
e|---------------------------------------10b12-----------------------        
g|----8~~-------------------//9s12-----------------------------------
d|-9--------9~~\\----------------------------------------------------
a|-------------------------------------------------------------------
e|-------------------------------------------------------------------

e|-------^12r10s14b15r14--12---------14b15--^15-^15r14--12s10s12\\---
b|-------------------------------------------------------------------
g|-------------------------------------------------------------------
d|-------------------------------------------------------------------
a|-------------------------------------------------------------------
e|-------------------------------------------------------------------

cont.
e|-----14b15--^15-^15r----12~~----10s12~~----------------------------
b|-------------------------------------------------------------------
g|-------------------------------------------------------------------
d|-------------------------------------------------------------------
a|-------------------------------------------------------------------
e|-------------------------------------------------------------------

e|------12s7~~\\-----------------------------------------------------
b|------------------8p7-8p7-8--10b11r--p8p--------------------------8
g|------------------------------------------------h9--9~~~~-------//9
d|-------------------------------------------------------------------
a|-------------------------------------------------------------------
e|-------------------------------------------------------------------

cont.
e|--------------------------------------------------12-12------------
b|--10b11r--p8p------8b10--------------------------------------------
g|----------------------h9---------9~~~------------------------------
d|-------------------------------------------------------------------
a|-------------------------------------------------------------------
e|-------------------------------------------------------------------

e|----------12s14-14-14-14-14-14s16--14s12s10-10-10-10-10-10-10-10s12
b|-------------------------------------------------------------------
g|-------------------------------------------------------------------
d|-------------------------------------------------------------------
a|-------------------------------------------------------------------
e|-------------------------------------------------------------------

cont.
e|-12-12-12s10s7~~\\---6h7-6----------------------------------------
b|---------------------------------------------------8---------8----
g|------------------------------------------------------9--9--------
d|------------------------------------------------------------------
a|------------------------------------------------------------------
e|------------------------------------------------------------------

e|------------------------------------------------------------------
b|-----------------------------------------7h8--7--7s10s8~~~~-------                                     
g|-----------------------------------7h9----------------------------
d|-------9~~\\----------------7s9-----------------------------------
a|--------------------//7h10----------------------------------------
e|------------------------------------------------------------------

cont.
e|------------------------------------------------------------------
b|------------------------------------------------------------------
g|------------------------------------------------------------------
d|------------------------------------------------------------------
a|------------------------------------------------------------------
e|------------------------------------------------------------------

e|------------------------------------------------------------------
b|------------------------------------------------------------------
g|------------------------------------------------------------------
d|------------------------------------------------------------------
a|------------------------------------------------------------------
e|------------------------------------------------------------------

cont.
e|------------------------------------------------------------------
b|------------------------------------------------------------------
g|------------------------------------------------------------------
d|------------------------------------------------------------------
a|------------------------------------------------------------------
e|------------------------------------------------------------------

e|------------------------------------------------------------------
b|------------------------------------------------------------------
g|------------------------------------------------------------------
d|------------------------------------------------------------------
a|------------------------------------------------------------------
e|------------------------------------------------------------------

cont.
e|------------------------------------------------------------------
b|------------------------------------------------------------------
g|------------------------------------------------------------------
d|------------------------------------------------------------------
a|------------------------------------------------------------------
e|------------------------------------------------------------------