Coma White
Tabbed by Adam Warren

ALBUM: MECHANICAL ANIMALS

STANDARD TUNNING
E A D G B e

INTRO

B|--------------------------------------------|
G|----------9-------X4------7-----5-----------|
D|-----9--------------------------------------|

CHOURS	

A PILL TO MAKE YOU NUMB

G|---9----5----|
D|---9----5----|
A|---7----3----|


PLAY AFTER CHOURS

D|--------------7---5---3-3-3-3-3-------------------|
A|---5-5-5-5-5-5---------------------3--3/5-5-5-----|

IF YOU HAVE ANY CORRECTIONS PLEASE SEND THEM TO ME AT burnsac@iaccess.com.au