Coma White
Tabbed by Ron

STANDARD TUNNING
E A D G B e

INTRO AND VERSE
B|-----0---0---0---0-1-1--(X3)------0---0---0---0--------|
G|---2---2---2---2--------||||--2/7---7---5---4----------|


CHORUS	

A PILL TO MAKE YOU NUMB

D|---7--10--5--2--3--|
A|---7--10--5--2--3--|
E|---5--8---3--0--1--|


PLAY AFTER CHORUS

D|---7--10--12--6--10--12|
A|---7--10--12--6--10--12|
E|---5--8---10--4--8---10|

D|---7--12--10--3--3--|
A|---7--12--10--3--3--|
E|---5--10---8--0--1--|

IF YOU HAVE ANY CORRECTIONS PLEASE SEND THEM TO ME AT jarrett@lineone.net