Coma White
TABBER:DUSTIN MCLAUGHLIN
TUNING:STANDARD

INTRO\MAIN RIFF:                            IF YOU CANT FINGERPICK, THAN YOUR SCREWED

E---------------------------------------------------------------------------------------------------------
G----0-----0------0-----0---0---1-----0-----0-----0-----0---0---1---1---3---3---3---3---1---1---0---0-----
B--2---2-----2------2-----2---2-----2---2-----2-----2-----2---2---2---2---2---2---2---2---2---2---2---0---
D--------2-----2------2-------------------2-----2-----2---------------------------------------------------
A---------------------------------------------------------------------------------------------------------
E---------------------------------------------------------------------------------------------------------
       "REAPEAT THAT TWICE"

    
       CHORUS:
E--------------------------------------------------------------------------------------------
G--------------------------------------------------------------------------------------------
B--------------------------------------------------------------------------------------------
D---7-7-7-7-7-7-7-7--10-10-10-10-10-10-10-10--5-5-5-5-5-5-5-5--------------------------------
A---7-7-7-7-7-7-7-7--10-10-10-10-10-10-10-10--5-5-5-5-5-5-5-5--------------------------------
E---5-5-5-5-5-5-5-5---8--8--8--8--8--8--8--8--3-3-3-3-3-3-3-3--------------------------------
           "THE PILL TO MAKE YOU NUMB"



NOTE:THATS ALL I REALLY KNOW TO THE SONG BUT ITS A FUN ONE.