Coma White
Tabbed by Pogo-[DBC]

Shit you should know :	/ - slide up
			\ - slide down
			~ - hold for abit
			x - muted (not palmed)



only rythm, no lead.
			

[*******RIFF A (INTRO)*******]                      

E---------------------------------------|  
G--0--0--0--0--1-1-----------0--0--0--0-|   
B-2--2--2--2--------(x3)--2\7--7--5--4--|   
D---------------------------------------|   
A---------------------------------------|   
E---------------------------------------|


    
[*******RIFF B*******]

E---------------------------------------------------------------------------|
G---------------------------------------------------------------------------|
B---------------------------------------------------------------------------|
D-7-7-7-7-7-7-7-7-10-10-10-10-10-10-10-10-5-5-5-5-5-5-5-5-5/3-3-3-3-3-3-3-3-|
A-7-7-7-7-7-7-7-7-10-10-10-10-10-10-10-10-5-5-5-5-5-5-5-5-5/3-3-3-3-3-3-3-3-|
E-5-5-5-5-5-5-5-5--8--8--8--8--8--8--8--8-3-3-3-3-3-3-3-3-3/1-1-1-1-1-1-1-1-|
           

[*******RIFF C*******]

E|----------------------------------------------------------------------------|
B|----------------------------------------------------------------------------|
G|----------------------------------------------------------------------------|
D|-7-7-7-7--10/12-xx--6~-6-6-6--10/12-xx--7~-7-7-7--12\10-xx-3~-3-3-3-3-3-3-3-|
A|-7-7-7-7--10/12-xx--6~-6-6-6--10/12-xx--7~-7-7-7--12\10-xx-3~-3-3-3-3-3-3-3-|
E|-5-5-5-5---8/10-xx--4~-4-4-4---8/10-xx--5~-5-5-5--10\-8-xx-1~-1-1-1-1-1-1-1-| 


[*******RIFF D*******]

E---------------------------------------------------------------------------------|
G---------------------------------------------------------------------------------|
B---------------------------------------------------------------------------------|
D-7-7-7-7-7-7-7-7-10-10-10-10-10-10-10-10-12-12-12-12-12-12-12-12-3-3-3-3-3-3-3-3-|
A-7-7-7-7-7-7-7-7-10-10-10-10-10-10-10-10-12-12-12-12-12-12-12-12-3-3-3-3-3-3-3-3-|
E-5-5-5-5-5-5-5-5--8--8--8--8--8--8--8--8-10-10-10-10-10-10-10-10-1-1-1-1-1-1-1-1-|  


[****ORDER****]

RIFF A x6   (play once, then on the second drums + bass come in)
RIFF B x2
RIFF C x1   (with lead)
RIFF A x4
RIFF B x4
RIFF C x1   (just rythm)
RIFF C x1   (rythm+Lead)
RIFF C x1   (All)
---------   (bass for riff b and drums x1)
RIFF D x1
RIFF B x4   

tada...

me thinks its pretty right .. anything to say say it to (pogo_187@hotmail.com)