Irresponsible Hate Anthem
Tabbed By Never Born
slborn@zoomnet.net

intro
e|----------------------------------------
b|----------------------------------------
g|----------------------------------------
d|----------------------------------------
a|-2-2-2-5-5-5-7-7-8-8-8-7-7-7-5-5-2-2-2--
e|-0-0-0-3-3-3-5-5-6-6-6-5-5-5-3-3-0-0-0--

e|----------------------------------------
b|----------------------------------------
g|----------------------------------------
d|----------------------------------------
a|-5-5-5-7-7-3-3-3-3-3-3-3----------------
e|-3-3-3-5-5-1-1-1-1-1-1-1----------------

e|----------------------------------------
b|----------------------------------------
g|----------------------------------------
d|----------------------------------------
a|-2-2-2-5-5-5-7-7-8-8-8-7-7-7-5-5-2-2-2--
e|-0-0-0-3-3-3-5-5-6-6-6-5-5-5-3-3-0-0-0--

e|----------------------------------------
b|----------------------------------------
g|----------------------------------------
d|----------------------------------------
a|-5-5-5-7-7-2-2-2-2-2-2-2----------------
e|-3-3-3-5-5-0-0-0-0-0-0-0----------------

e|------------------------
b|------------------------
g|-----------------9------
d|-7-8-7-8-7-8-7-8---8----
a|------------------------
e|------------------------

guitar scratch noises when he sings "i hate the hater"
e|----------------------
b|----------------------
g|-8-8-8-8-8------------
d|-7-7-7-7-7------------
a|-5-5-5-5-5------------
e|----------------------

a|--------------------------------------------
b|--------------------------------------------
g|--------------------------------------------
d|--------------------------------------------
a|-2-5-7-8-7-5-2-5-7-8-7-5-2-5-7-8-7-5-2-3-2--
e|-0-3-5-6-5-3-0-3-5-6-5-3-0-3-5-6-5-3-0-1-0--

end
e|------------------
b|------------------
g|------------------
d|------------------
a|-2-2-2-2-2-2-2----
e|-0-0-0-0-0-0-0----