Irresponsible Hate Anthem
Tabbed by Never Born slborn@zoomnet.net

intro
e|-------------------------------------------
b|-------------------------------------------
g|-------------------------------------------
d|-------------------------------------------
a|-4-4-4-7-7-7-9-9-10-10-10-9-9-9-7-7-4-4-4--
e|-2-2-2-5-5-5-7-7--8--8--8-7-7-7-5-5-2-2-2--

e|----------------------------------------
b|----------------------------------------
g|----------------------------------------
d|----------------------------------------
a|-7-7-7-9-9-2-2-2-2-2-2-2--3--------------
e|-5-5-5-7-7-0-0-0-0-0-0-0--1--------------

e|----------------------------------------
b|----------------------------------------
g|----------------------------------------
d|----------------------------------------
a|-4-4-4-7-7-7-9-9-10-10-10-9-9-9-7-7-----
e|-2-2-2-5-5-5-7-7--8--8--8-7-7-7-5-5-----

e|----------------------------------------
b|----------------------------------------
g|----------------------------------------
d|----------------------------------------
a|-4-4-4-7-7-7-9-9-12-12-12-12-12-12-12---
e|-2-2-2-5-5-5-7-7-10-10-10-10-10-10-10---

e|------------------------
b|------------------------
g|-----------------9------
d|-7-8-7-8-7-8-7-8---8----
a|------------------------
e|------------------------

guitar scratch noises when he sings "i hate the hater"
e|----------------------
b|--8--8--8--8--8-------
g|-10-10-10-10-10-------
d|--9--9--9--9--9-------
a|--7--7--7--7--7-------
e|----------------------

"everybody's somone elses"
a|----------------------------------------------
b|----------------------------------------------
g|----------------------------------------------
d|----------------------------------------------
a|-4-10-9-7-9-7-4-10-9-7-9-7-4-10-9-7-9-7-2-3---
e|-2--8-7-5-7-5-2--8-7-5-7-5-2--8-7-5-7-5-0-1---

end
e|------------------
b|------------------
g|------------------
d|------------------
a|-4-4-4-4-4-4-4----
e|-2-2-2-2-2-2-2----