The Beautiful People
Tabbed by Max Brazeau

Drop D tuning

Riff 1 (0:11)
-------------|
-------------|
-------------|
---X-X-X-X-X-|
---X-X-X-X-X-|
---X-X-X-X-X-|

Riff 2 (0:21)

-------------|
-------------|
-------------|
---0--6--0---|
---0--6--0---|
---0--6--0---|

Riff 3 (0:31)

---------------------------------------------------------|
---------------------------------------------------------|
---------------------------------------------------------|
----0--6--0-----0--6--0--7--0-----0--6--0--7--0--0-2-0---|
----0--6--0-----0--6--0--7--0-----0--6--0--7--0--0-2-0---|
----0--6--0-----0--6--0--7--0-----0--6--0--7--0--0-2-0---|

Riff 4 (1:11)

--------------------------------------------------------|
--------------------------------------------------------|
----7777--------6666--------5555--------4444--------5555|
----7777--------6666--------5555--------4444--------5555|
----5555--------4444--------3555--------2222--------5555|
--------------------------------------------------------|

Riff 5 Chorus) : (1:25)

-------------------------------------------------|
-------------------------------------------------|
-------------------------------------------------|
----0--6--0--7--0----0--6--0--7--0----0--2--0----|
----0--6--0--7--0----0--6--0--7--0----0--2--0----|
----0--6--0--7--0----0--6--0--7--0----0--2--0----|

Riff 6: (1:40)

-------------------|
-------------------|
-------------------|
-----X-X-X-2-0-----|
-----X-X-X-2-0-----|
-----X-X-X-2-0-----|