Dried Up Tied and Dead to the World
tabbed by jacob wall

drop d-tuning

riff 1 
(this is my best guess so it could be wrong on those last three
chords. I think the last three are harmonics.)

e||----------------13------||
B||----------------11--11--||
G||--10101010--10------10--||
D||--x-x-x-x---10----------||
A||--8-8-8-8---------------||
D||------------------------||

riff 2
(I think these are harmonics or just a keyboard but I'm not
sure. either way I put both down)

e||-------------------------------------------||
B||--5-5-6--5---5-5-6--5---5-5-6--5--7--8--9--||
G||-------------------------------------------||
D||-------------------------------------------||
A||-------------------------------------------||
D||-------------------------------------------||	
 
||--E-E-F--E---E-E-F--E---E-E-F--E--F#-G--G#-

riff 3
(chorus riff)

e||------------------------------------------------------------------
B||------------------------------------------------------------------
G||--9-9-9-9-9-9-9-9-9-9-9-9-9-9-9-9-7-7-7-7-7-7-7-7-7-7-7-7-7-7-7-7-
D||--9-9-9-9-9-9-9-9-9-9-9-9-9-9-9-9-7-7-7-7-7-7-7-7-7-7-7-7-7-7-7-7-
A||--7-7-7-7-7-7-7-7-7-7-7-7-7-7-7-7-5-5-5-5-5-5-5-5-5-5-5-5-5-5-5-5-
D||------------------------------------------------------------------

riff 3 continued

e||------------------------------------------------------------------|
B||------------------------------------------------------------------|
G||--4-4-4-4-4-4-4-4-4-4-4-4-4-4-4-4-5-5-5-5-5-5-2-2-2-2-2-2-2-2-2-2-|
D||--4-4-4-4-4-4-4-4-4-4-4-4-4-4-4-4-5-5-5-5-5-5-2-2-2-2-2-2-2-2-2-2-|
A||--2-2-2-2-2-2-2-2-2-2-2-2-2-2-2-2-3-3-3-3-3-3-0-0-0-0-0-0-0-0-0-0-|
D||------------------------------------------------------------------|

riff 5
(no distortion)                          fill 1

e||----------------------------------||-----------||
B||----------------------------------||-----------||
G||----------------------------------||-----------||
D||----------------------------------||-----------||
A||--2-2-2-0-0-0-2----5-5-5-5-7-7-7--||--0-0-0-0--||
D||--2-2-2-0-0-0-2----5-5-5-5-7-7-7--||--0-0-0-0--||

riff 6
(no distortion at first, but gets into some light distortion)

e||-------------------------------------------------------------||
B||-------------------------------------------------------------||
G||-------------------------------------------------------------||
D||-------------------------------------------------------------||
A||--2-2-2-0-0-0-2----5-5-5-5-7-7-7-2-2-2-0-0-0-2------5-5-5-5--||
D||--2-2-2-0-0-0-2----5-5-5-5-7-7-7-2-2-2-0-0-0-2------5-5-5-5--||

riff 7a 
(palm mute all the E chords and try to get the most ripping,
crunching distortion you can get)

e||-----------------------------||
B||------------------------4^5--||
G||-----------------------------||
D||--2-2---2-2---2-2----2-------||
A||--2-2---2-2---2-2----2-------||
D||--2-2---2-2---2-2----2-------||

riff 7b 
(again, I dont know if this is guitar or keyboard but I'll 
show both ways)

e||------------------------||
B||--5--4--3----5-4--3-----||
G||---------------------2--||
D||------------------------||
A||------------------------||
D||------------------------||

 ||--E--Eb-D----E-Eb-D--A--||

riff 5 and riff 6 are done in wierd order so youll have to
listen to the song to get the idea.