Tourniquet
Tabbed by: Prosthetic Synthesis

Riff 1: Intro/Main Riff

|-----------------------------|
|-----------------------5b-r--|
|-----------------------5b-r--|
|--7b----7---7-r7-5-3-5-------|
|-----------------------------|
|-----------------------------|

Riff 2: Chorus

|--------------------------------------------------------------------------------------------|
|--------------------------------------------------------------------------------------------|
|-------------------------------------------------------------------15-15-15-15-15-15-15-15--|
|--5-5-5-5-5-5-5-5-/12-12-12-12-12-12-12-12-13-13-13-13-13-13-13-13--------------------------|
|--5-5-5-5-5-5-5-5--------------------------------------------------13-13-13-13-13-13-13-13--|
|--3-3-3-3-3-3-3-3---------------------------------------------------------------------------|

Riff 3:

|---------------------------------------|
|-------20------------------------------|
|--19b-----15--14--10--12~--7----12~~~--|
|---------------------------------------|
|---------------------------------------|
|---------------------------------------|

Riff 4:

|-----------|
|-----------|
|-----------|
|-----------|
|-----------|
|--3b~~~r---|