Tourniquet
Tabbed by Never Born
slborn@zoomnet.net

this part is first  played 4 times
e|---------------------------------
b|---------------------------------
g|---------------------------------
d|---------------------------------
a|--^------------^---^-------------
e|-17--17-15-13-15---9-------------

this part is played slowly when he is singing "Shes 
made of hair and bone and little teath...." quietly
e|-----------------------------------------
b|-----------------------------------------
g|-----------------------------------------
d|-----------------------------------------
a|-----------------------------------------
e|-15--18---15--18---15---18-21-22--18-----

this is when hes screeming "take your hatred out on me"..
e|---------------------------------
b|---------------------------------
g|---------------------------------
d|-------^---^---^-----------------
a|--^---15--16---17/18/17---15--^--
e|-17--------------------------15--

This is a little solo after the first corus
bend the heck out of those first 3 notes
e|---------------------------------------
b|-----^--^------------------^-----------
g|--^-19-21---^-----------^-14-----^-----
d|-21--------19--17---15-17----15-17~----
a|---------------------------------------
e|---------------------------------------

this is when hes singing "what i wanted, what i needed.."
e|-----------------------------
b|-----------------------------
g|-----------------------------
d|-*-*-*-*-5-*-*-*-*-5-5-------
a|-5-5-5-5-5-5-5-5-5-5-5-------
e|-3-3-3-3-3-3-3-3-3-3-3-------

* = harmonics or palm mutes

Ending

e|------
b|------
g|------
d|------
a|--^---
e|-17~~~


fly part played by key board

e|----------
b|----------
g|----------
d|----------
a|----------
e|-2-2/4/2--

part in original version and prosthetic remix

e|--------------------------------------------
b|--------------------------------------------
g|--------------------------------------------
d|-*-*-*-*-5-*-3-*-*-----*-*-*-*-5-*-3-*-*----
a|-5-5-5-5-5-5-3-5-5-----5-5-5-5-5-5-3-5-5-4~-
e|-3-3-3-3-3-3-1-3-3-5~--3-3-3-3-3-3-1-3-3----

* = palm mutes