Little Horn
tabbed by: jacob wall

drop d-tuning. all riffs majorly distorted

riff 1 (main riff)

e||-----------------------------------------------------------------||
B||-----------------------------------------------------------------||
G||-----------------------------------------------------------------||
D||--3-0-0-3-0-0-3-0-0-3-0-0-3-0-5---3-0-0-3-0-0-3-0-0-3-0-0-6-5-3--||
A||--3-0-0-3-0-0-3-0-0-3-0-0-3-0-5---3-0-0-3-0-0-3-0-0-3-0-0-6-5-3--||
D||--3-0-0-3-0-0-3-0-0-3-0-0-3-0-5---3-0-0-3-0-0-3-0-0-3-0-0-6-5-3--||

riff 2 (intro to chorus)

e||-----------------------------------||
B||-----------------------------------||
G||-----------------------------------||
D||--6-6-6-6-6-6-6-6-6-6-6-6-6-5-3-0--||
A||--6-6-6-6-6-6-6-6-6-6-6-6-6-5-3-0--||
D||--6-6-6-6-6-6-6-6-6-6-6-6-6-5-3-0--||

riff 3 (chorus riff: ripping distortion)

e||-----------------------------------------------------------||
B||-----------------------------------------------------------||
G||-----------------------------------------------------------||
D||--0-0-0-0-0-6--3--x-5--x-1--3-x-x-3-x-x-3-x-x-3-x-x-3-x-5--||
A||--0-0-0-0-0-6--3--x-5--x-1--3-x-x-3-x-x-3-x-x-3-x-x-3-x-5--||
D||--0-0-0-0-0-6--3--x-5--x-1--3-x-x-3-x-x-3-x-x-3-x-x-3-x-5--||

riff 4 (end of chorus and ending riff of song)

e||-----------------------||
B||--0--------------------||
G||--0--------------------||
D||--0-----------------1--||
A||--------------------1--||
D||--------------------1--||

riff 5 (bridge riff i guess but it sounds like the chords are
palm muted or its just really muddy distortion. palm mute all
open D's that 8aren't chords. slide up two frets and just let go
on that C chord)88 fill for riff 5

e||--------------------------||-------||
B||--------------------------||-------||
G||--------------5/----------||-------||
D||--6---5---3---5/----------||----0--||
A||--6---5---3---3/----------||----0--||
D||--6---5---3--------0-0-0--||--0-0--||