Little Horn
Tabbed by Anntie Kryst & Sex Kitten

Main Riff:
E--------------------------------------------------------------------------
B--------------------------------------------------------------------------
G--------------------------------------------------------------------------
D-------------------------------------------------------------------------- 
A--3--0--0--3--0--0--3--0--0--3--0--0--3--0--5--3--0--0--6--5--0
D--3--0--0--3--0--0--3--0--0--3--0--0--3--0--5--3--0--0--6--5--0
(Repeat several times) 
 
Going into the chorus:
E--------------------------------------------------------------------------
B--------------------------------------------------------------------------
G--------------------------------------------------------------------------
D--------------------------------------------------------------------------
A--6--6--6--6--6--6--6--6--6--6--6--6--6--5--3--0------------------ 
D--6--6--6--6--6--6--6--6--6--6--6--6--6--5--3--0------------------
 
Chorus:
E--------------------------------------------------------------------------
B-------------------------------------------------------------------------- 
G-------------------------------------------------------------------------- 
D-------------------------------------------------------------------------- 
A--0--0--0--0--0--6--3--X--5--X--1--3--X--X--3--X--X--3--X--X 
D--0--0--0--0--0--6--3--X--5--X--1--3--X--X--3--X--X--3--X--X 
 
E--------------------------------------------------------------------------
B-------------------------------------------------------------------------- 
G-------------------------------------------------------------------------- 
D--------------------------------------------------------------------------
A--3--X--X--3--X--5--------------------------------------------------- 
D--3--X--X--3--X--5--------------------------------------------------- 
 
Ending riff of the chorus and the song:
E--------------------------------------
B--------------------------------------
G--0----------------------------------
D--0---------------------------------- 
A------------------------------1------ 
D------------------------------1------ 
 
There you go the TAB for Little Horn!