Deformography
tabbed by: jacob wall

drop d-tuning

riff 1 (it kinda sounds like theres a little wah-wah in this one)

e||-----------------------------------||
B||-----------------------------------||
G||-----------------------------------||
D||-----------------------------------||
A||--2---2---1---1--------------------||
D||------------------2---2---0--2--5--||

riff 2 (distortion)

e||-----------------------------------||
B||-----------------------------------||
G||--4---4---3---3--------------------||
D||--4---4---3---3---2---2---0--2--5--||
A||--2---2---1---1---2---2---0--2--5--||
D||------------------2---2---0--2--5--||

riff 3 (chorus riff: its in the background of that weird keyboard part)

e||-----------------------------------||
B||-----------------------------------||
G||--9-9-9-9-9-9-9-9-9-9-9-9---5-5-5--||
D||--9-9-9-9-9-9-9-9-9-9-9-9---5-5-5--||
A||--7-7-7-7-7-7-7-7-7-7-7-7---3-3-3--||
D||-----------------------------------||

riff 4 (major distortion and this maybe wrong)

e||---------------------------------||
B||---------------------------------||
G||----------9-----9-9-9-9-9-7-7-7--||
D||--7-7-7-7-9-----9-9-9-9-9-7-7-7--||
A||--7-7-7-7-7-----7-7-7-7-7-5-5-5--||
D||--7-7-7-7-7-----7-7-7-7-7-5-5-5--||

riff 5 (palm mute the whole riff. it appears near the last chorus)

e||---------------------------||
B||---------------------------||
G||---------------------------||
D||---------------------------||
A||---------------------------||
D||--0-2-2-2-5-2-2-0---2-2-2--||